Torn Apart Guitar Tabs: Vow


Bass Tab by Gnome (gnome@j51.com)

Verse :

G ------------------------------| |
D ------------------------------|.|
A 0000-0000-3333-3333-----------|.|
E --------------------1111-1111-| |

Pre Chorus:

G -----------------------------------------
D 00-000---------------------00-000--------
A -------11-111-00-000--------------11-111-
E ---------------------00-000--------------

Chorus:

G ----------------------------| |
D --------------00-000--------|.|
A -------33-333---------------|.|
E 11-111---------------33-333-| |

Then repeat a few things.

Bridge:

G --------| |
D --0---0-|.|
A ----2---|.| x 4
E 2-------| |

Repeat a few things

Outro:

G ---------
D ---------
A ---------
E 1-1-1-1-1 play this till end.

Tab by Steven McCarron (9505108m@student.gla.ac.uk)

                                Garbage
                                  Vow
Chords used:
        E  A  D  G  B  E
Asus2   X  0  2  2  0  0
Cmaj7   X  3  2  0  0  0
Fmaj7   1  X  3  2  1  0
Dsus2   X  X  0  2  3  0
A#      X  1  3  3  3  X
Em      0  2  2  0  0  0
G       3  2  0  0  3  3
F#m     X  9  11 11 10 9
D       10 12 12 11 10 10
Bm      7  9  9  7  7  7

Intro (with delay effect)
Asus2     Cmaj7     Fmaj7

Verse 1

Asus2              Cmaj7         Fmaj7
I can`t use what I can`t abuse                  and
Asus2                Cmaj7           Fmaj7
I can`t stop when it comes to you               You
Asus2                  Cmaj7             Fmaj7
burned me out, but I`m back at your door        Like
Asus2              Cmaj7          Fmaj7
Joan of Arc coming back for more

Pre-Chorus (with Riff 1 repeated over the top)

  Dsus2         A#
I nearly died
         Asus2      Em
I nearly died
        Dsus2     A#    Fmaj7
I nearly died

Chorus (with Riff 2 repeated over the top)

                 Cmaj7                    Dsus2
I came to cut you up, I came to knock you down
                 G                      Fmaj7
I came around to tear your little world apart
                Asus2                    Dsus2
I came to shut you up, I came to drag you down
                G                       Fmaj7
I came around to drag your little world apart   And break your soul apart

Asus2     Cmaj7     Fmaj7
Riff 3 is played twice on top
Asus2     Cmaj7     Fmaj7
Riff 3 is played twice on top

Verse 2

        Asus2                Cmaj7           Fmaj7
Ah, you burn and burn to get under my skin   Riff 3    You`ve
Asus2              Cmaj7            Fmaj7
gone too far now I won`t give in    Riff 3             You
Asus2                Cmaj7                 Fmaj7
crucified me but I`m back in your bed      Riff 3      like
Asus2               Cmaj7                  Fmaj7
Jesus Christ coming back from the dead     Riff 3

Pre-Chorus 2 (with Riff 1 on top)

               A#
I nearly died
         Asus2        Em
I nearly died
       Dsus2     A#      Fmaj7
I nearly died

Chorus 2 (with Riff 2 on top)

                  Cmaj7                     Dsus2
I came to knock you up, I came to knock you down
                 G                      Fmaj7
I came around to tear your little world apart
               Cmaj7                     Dsus2
I came to rip you up, I came to shut you down
                 G                      Fmaj7
I came around to tear your little world apart        And break your soul apart

Bridge (with Riff 4 played over each line)
F#m     D       Bm      D
F#m     D       Bm      D
F#m     D       Bm      D

Pre-Chorus (with Riff 1 on top)

               A#
I nearly died
         Asus2         Em
I nearly died
         Dsus2         A#       Fmaj7
I nearly died

Chorus 3 (with Riff 2 on top)

                 Cmaj7                    Dsus2
I came to cut you up, I came to knock you down
                 G                      Fmaj7
I came around to tear your little world apart
                    Asus2                 Dsus2
I came to shut you up, I came to drag you down
                 G                      Fmaj7
I came around to drag your little world apart

Extended Chorus (with Riff 5 played over the top)

Cmaj7   Dsus2   G                      Fmaj7
                Tear your little world apart
Cmaj7   Dsus2   G                      Fmaj7
                Tear your little world apart    And break your soul apart

Outro

Fmaj7           Cmaj7           Fmaj7
Riff 6 is repeated on top of the remaining lines
Fmaj7           Cmaj7           Fmaj7
Fmaj7                Cmaj7           Fmaj7
I can`t stop when it comes to you
Fmaj7                Cmaj7           Fmaj7
I can`t stop when it comes to you           When it comes to you
Fmaj7                Cmaj7           Fmaj7
                     When it comes to you   When it comes to you

Fade Out


Riff 1 (played over the pre-chorus)
E|---|------7-----------------|---------7-------7---------------|
B|-10|(10)-----10----------10-|(10)--10----10-------10-----10---|
G|---|------------------------|---------------------------------|
D|---|------------------------|---------------------------------|
A|---|------------------------|---------------------------------|
E|---|------------------------|---------------------------------|

Riff 2 (played over the chorus)
E|------12------12------12-----|
B|-(13)----13-------13------13-|
G|-----------------------------|
D|-----------------------------|
A|-----------------------------|
E|-----------------------------|

Riff 3 (This kicks in at 1:08 and is played over the intro chords)
E|--------------|----------------|
B|--------------|----------------|
G|-2----0----4--|-4b--(4)-----0--|
D|---2----2-----|---------2------|
A|--------------|----------------|
E|--------------|----------------|

Riff 4 (This is played over the bridge chords)
E|-----------|------------|10--10--10--|-7------
B|-10-9-10-9-|-10-9-10--9-|------------|--------
G|-----------|------------|------------|--------
D|-----------|------------|------------|--------
A|-----------|------------|------------|--------
E|-----------|------------|------------|--------

Riff 5 (This is almost a guitar solo played over the extended chorus)
E|--------------------|------------------|
B|-----------------12-|-12b--(12)--------|
G|-14------12---------|---------------12-|
D|-----14------14-----|-----------14-----|
A|--------------------|------------------|
E|--------------------|------------------|

Riff 6 (This is played over the outro chords)
E|---0------------|----------0-------|----0-----------------|-----
B|-8----7----8----|-7------------6---|-8-----7----8---------|-(8)-
G|----------------|-----5------------|----------------------|-----
D|----------------|------------------|----------------------|-----
A|----------------|------------------|----------------------|-----
E|----------------|------------------|----------------------|-----

Tab by Daniel Meijer (p3034558@hardy.ocs.mq.edu.au)

^^^ = sustain with some vibrato

4h5p4 = hammer from 4th to 5th fret, pull off from 5th to 4th.



Fill 1:
e--5-7-5^^^^----5-7-5-7-5---

Fill 2:
e-------12-------12------
b--s/13----13-13----13---

Fill 3:
g-----------4--4h5p4-------
d---5---5----------------5--
a----7---7------------7----

Fill 4:
e-------------------------10-10-10-10-7--
b--10-9-10-9^^-10-9-10-9-----------------

Fill 5: same as fill 3 but an octave up
e-----------7-7h8p7-------
b--10---8-------------8---
g-----9---9---------9-----

Fill 6:
b--8-7-8^^--7-5-7^^--8-7-8^^----


D7sus2 is xx0210 (eadgbe)



Intro: (w/ weird effects)
Am                 C            F

Verse 1:
Am                 C            F
I can't use what I can't abuse....
Am                      C             F
and I can't stop when it comes to you....

(bass and drums and noise enter)

Am                        C                F
You burned me out but I'm back at your door
Am                      C             F
like Joan of Arc coming back for more


Bridge 1: (with fill 1 repeated)

D5           Bb5
I nearly died....
A5           E5
I nearly died....
D5           Bb5
I nearly died....



Chorus: (with fill 2 repeated)
F                 C
I came to cut you up
C                      D7sus2
I came to knock you down
D7sus2            G                    F
I came around to tear your little world apart
F                  C
I came to shut you up
C                 D7sus2
I came to drag you down
D7sus2            G                    F
I came around to tear your little world apart
F
And break your soul apart


Repeat Intro: (with fill 3 repeated)

Verse2: (with fill 3 at end of each phrase)
Am                         C             F
You burned and burned to get under my skin
Am                         C             F
You've gone too far now, I won't give in
Am                         C             F
You crucify me but I'm back in your bed
Am                        C             F
Like Jesus Christ coming back from the dead


Bridge 1 again: (with fill 1 repeated)

D5           Bb5
I nearly died....
A5           E5
I nearly died....
D5           Bb5
I nearly died....


Chorus 2: (with fill 2 repeated)
F                   C
I came to knock you up
C                   D7sus2
I came to cut you down
D7sus2           G                     F
I came around to tear your little world apart
F                C
I came to rip you up
C                  D7sus2
I came to shut you down
D7sus2              G                    F
I came around to tear your little world apart
F
And break your soul apart


Bridge 2: (with Fill 4 repeated)
(No chords, but a bassline and lots of noise)


Bridge 1 again: (with fill 1 repeated)

D5           Bb5
I nearly died....
A5           E5
I nearly died....
D5           Bb5
I nearly died....

Chorus 3: (with fill 2 repeated)
F                C
I came to cut you up
C                  D7sus2
I came to knock you down
D7sus2              G                    F
I came around to tear your little world apart
F                C
I came to shut you up
C                  D7sus2
I came to suck you down
D7sus2              G                    F
I came around to tear your little world apart
F                C
(now fill 5 repeated)
C                  D7sus2
(now fill 5 repeated)
D7sus2              G                    F
                 tear your little world apart....
F                C
(now fill 5 repeated)
C                  D7sus2
(now fill 5 repeated)
D7sus2              G                    F
                 tear your little world apart....
F
and break your soul apart


Outro: (with fill 6 repeated)
F                   C

F                   C
I can't stop when it comes to you....
(repeat to fade)

Return to tabs page.